0
SECTION
2
HEADER
9
$INSUNITS
70
4
9
$ACADVER
1
AC1014
9
$HANDSEED
5
FFFF
0
ENDSEC
0
SECTION
2
TABLES
0
TABLE
2
VPORT
5
8
100
AcDbSymbolTable
0
ENDTAB
0
TABLE
2
LTYPE
5
5
100
AcDbSymbolTable
0
LTYPE
5
14
100
AcDbSymbolTableRecord
100
AcDbLinetypeTableRecord
2
BYBLOCK
70
0
0
LTYPE
5
15
100
AcDbSymbolTableRecord
100
AcDbLinetypeTableRecord
2
BYLAYER
70
0
0
ENDTAB
0
TABLE
2
LAYER
5
2
100
AcDbSymbolTable
70
2
0
LAYER
5
50
100
AcDbSymbolTableRecord
100
AcDbLayerTableRecord
2
0
70
0
6
CONTINUOUS
0
ENDTAB
0
TABLE
2
STYLE
5
3
100
AcDbSymbolTable
70
1
0
STYLE
5
11
100
AcDbSymbolTableRecord
100
AcDbTextStyleTableRecord
2
STANDARD
70
0
0
ENDTAB
0
TABLE
2
VIEW
5
6
100
AcDbSymbolTable
70
0
0
ENDTAB
0
TABLE
2
UCS
5
7
100
AcDbSymbolTable
70
0
0
ENDTAB
0
TABLE
2
APPID
5
9
100
AcDbSymbolTable
70
2
0
APPID
5
12
100
AcDbSymbolTableRecord
100
AcDbRegAppTableRecord
2
ACAD
70
0
0
ENDTAB
0
TABLE
2
DIMSTYLE
5
A
100
AcDbSymbolTable
70
1
0
ENDTAB
0
TABLE
2
BLOCK_RECORD
5
1
100
AcDbSymbolTable
70
1
0
BLOCK_RECORD
5
1F
100
AcDbSymbolTableRecord
100
AcDbBlockTableRecord
2
*MODEL_SPACE
0
BLOCK_RECORD
5
1B
100
AcDbSymbolTableRecord
100
AcDbBlockTableRecord
2
*PAPER_SPACE
0
ENDTAB
0
ENDSEC
0
SECTION
2
BLOCKS
0
BLOCK
5
20
100
AcDbEntity
100
AcDbBlockBegin
2
*MODEL_SPACE
0
ENDBLK
5
21
100
AcDbEntity
100
AcDbBlockEnd
0
BLOCK
5
1C
100
AcDbEntity
100
AcDbBlockBegin
2
*PAPER_SPACE
0
ENDBLK
5
1D
100
AcDbEntity
100
AcDbBlockEnd
0
ENDSEC
0
SECTION
2
ENTITIES
0
LWPOLYLINE
5
100
100
AcDbEntity
8
0
100
AcDbPolyline
90
8
70
1
43
0.0
10
177.58632944718588
20
114.49648733948969
10
104.64632944718586
20
114.49648733948969
42
2.4142135623730949
10
103.06632944718586
20
112.91648733948969
10
103.06632944718586
20
103.57648733948969
42
2.4142135623730949
10
104.64632944718586
20
101.99648733948969
10
177.58632944718585
20
101.99648733948969
42
2.4142135623730749
10
179.16632944718586
20
103.57648733948972
10
179.16632944718586
20
112.91648733948972
42
2.4142135623730949
0
LWPOLYLINE
5
101
100
AcDbEntity
8
0
100
AcDbPolyline
90
8
70
1
43
0.0
10
177.53632944718589
20
141.9964873394897
10
104.69632944718585
20
141.9964873394897
42
2.4142135623730949
10
103.11632944718585
20
140.41648733948969
10
103.11632944718585
20
131.07648733948969
42
2.4142135623730949
10
104.69632944718585
20
129.4964873394897
10
177.53632944718586
20
129.4964873394897
42
2.4142135623730372
10
179.1163294471859
20
131.07648733948972
10
179.11632944718588
20
140.41648733948972
42
2.4142135623730949
0
LWPOLYLINE
5
102
100
AcDbEntity
8
0
100
AcDbPolyline
90
8
70
1
43
0.0
10
177.48632944718591
20
169.4964873394897
10
104.74632944718586
20
169.4964873394897
42
2.4142135623730949
10
103.16632944718584
20
167.91648733948966
10
103.16632944718584
20
158.57648733948969
42
2.4142135623730949
10
104.74632944718587
20
156.9964873394897
10
177.48632944718588
20
156.9964873394897
42
2.4142135623730949
10
179.06632944718586
20
158.57648733948972
10
179.06632944718586
20
167.91648733948972
42
2.4142135623730949
0
LWPOLYLINE
5
103
100
AcDbEntity
8
0
100
AcDbPolyline
90
8
70
1
43
0.0
10
179.01632944718585
20
186.07648733948969
10
179.01632944718585
20
195.41648733948966
42
2.4142135623730949
10
177.43632944718584
20
196.9964873394897
10
104.79632944718587
20
196.9964873394897
42
2.4142135623731131
10
103.21632944718586
20
195.41648733948966
10
103.21632944718586
20
186.07648733948969
42
2.4142135623731131
10
104.79632944718585
20
184.4964873394897
10
177.43632944718584
20
184.4964873394897
42
2.4142135623730949
0
LWPOLYLINE
5
104
100
AcDbEntity
8
0
100
AcDbPolyline
90
8
70
1
43
0.0
10
177.63632944718586
20
86.99648733948969
10
104.59632944718587
20
86.996487339489732
42
2.4142135623730949
10
103.01632944718588
20
85.416487339489734
10
103.01632944718588
20
76.076487339489717
42
2.4142135623731038
10
104.59632944718589
20
74.496487339489732
10
177.63632944718586
20
74.496487339489732
42
2.4142135623730856
10
179.2163294471859
20
76.076487339489745
10
179.2163294471859
20
85.416487339489677
42
2.4142135623730949
0
LWPOLYLINE
5
105
100
AcDbEntity
8
0
100
AcDbPolyline
90
4
70
1
43
0.0
10
88.216329447185856
20
211.9964873394897
10
194.01632944718585
20
211.9964873394897
10
194.01632944718585
20
59.496487339489725
10
88.216329447185856
20
59.496487339489704
0
LWPOLYLINE
5
106
100
AcDbEntity
8
0
100
AcDbPolyline
90
10
70
1
43
0.0
10
96.305709138820461
20
30.056312536605859
42
-2.4142135623730949
10
94.725709138820463
20
28.476312536605867
10
70.90570913882047
20
28.476312536605871
10
70.90570913882047
20
16.476312536605867
10
197.90570913882047
20
16.476312536605846
10
197.90570913882047
20
28.476312536605853
10
174.08570913882048
20
28.476312536605857
42
-2.4142135623730949
10
172.50570913882046
20
30.056312536605859
10
172.50570913882046
20
40.476312536605846
10
96.305709138820461
20
40.476312536605867
0
LWPOLYLINE
5
107
100
AcDbEntity
8
0
100
AcDbPolyline
90
8
70
1
43
0.0
10
28.220920811440212
20
160.47653760876071
10
28.220920811440212
20
169.2165376087616
42
2.41421356237309
10
26.640920811440196
20
170.79653760876164
10
4.4009208114401357
20
170.79653760876079
42
2.414213562373031
10
2.8209208114401383
20
169.21653760876069
10
2.8209208114402031
20
160.47653760876022
42
2.4142135623730949
10
4.4009208114402343
20
158.89653760876024
10
26.640920811440211
20
158.89653760876064
42
2.4142135623730554
0
LWPOLYLINE
5
108
100
AcDbEntity
8
0
100
AcDbPolyline
90
8
70
1
43
0.0
10
2.8209208114402258
20
88.216537608760675
10
2.8209208114402227
20
79.176537608760697
42
2.4142135623730949
10
4.4009208114402254
20
77.596537608760684
10
26.640920811440225
20
77.596537608760684
42
2.41421356237309
10
28.220920811440223
20
79.176537608760682
10
28.220920811440227
20
88.216537608761158
42
2.4142135623730994
10
26.640920811440235
20
89.796537608761156
10
4.4009208114402316
20
89.79653760876073
42
2.4142135623730585
0
LWPOLYLINE
5
109
100
AcDbEntity
8
0
100
AcDbPolyline
90
8
70
1
43
0.0
10
2.8209208114402147
20
142.31653760876068
10
2.8209208114402191
20
133.47653760876071
42
2.4142135623730963
10
4.4009208114402298
20
131.8965376087607
10
26.640920811440218
20
131.89653760876112
42
2.4142135623730616
10
28.220920811440216
20
133.47653760876116
10
28.220920811440212
20
142.31653760876117
42
2.4142135623730949
10
26.640920811440218
20
143.89653760876115
10
4.4009208114402085
20
143.89653760876072
42
2.4142135623730447
0
LWPOLYLINE
5
110
100
AcDbEntity
8
0
100
AcDbPolyline
90
8
70
1
43
0.0
10
2.8209208114402227
20
61.016537608760686
10
2.8209208114402227
20
51.876537608760685
42
2.4142135623730931
10
4.4009208114402254
20
50.296537608760687
10
26.640920811440218
20
50.296537608760687
42
2.4142135623730994
10
28.220920811440223
20
51.876537608760671
10
28.220920811440223
20
61.016537608760686
42
2.4142135623730798
10
26.640920811440214
20
62.596537608760698
10
4.4009208114402227
20
62.596537608760691
42
2.4142135623730931
0
LWPOLYLINE
5
111
100
AcDbEntity
8
0
100
AcDbPolyline
90
8
70
1
43
0.0
10
2.8209208114402213
20
115.31653760876068
10
2.8209208114402253
20
106.3765376087607
42
2.4142135623730963
10
4.4009208114402343
20
104.79653760876069
10
26.640920811440225
20
104.79653760876111
42
2.4142135623730616
10
28.220920811440227
20
106.37653760876117
10
28.220920811440223
20
115.31653760876117
42
2.4142135623730798
10
26.64092081144025
20
116.89653760876115
10
4.4009208114402263
20
116.89653760876072
42
2.4142135623730585
0
LWPOLYLINE
5
112
100
AcDbEntity
8
0
100
AcDbPolyline
90
4
70
1
43
0.0
10
43.220920811440223
20
184.19999999999999
10
-12.179079188559781
20
184.19999999999999
10
-12.179079188559783
20
35
10
43.220920811440223
20
35
0
LWPOLYLINE
5
113
100
AcDbEntity
8
0
100
AcDbPolyline
90
10
70
1
43
0.0
10
-50.006655327095082
20
86.489669052621863
10
-50.006655327095082
20
76.069669052621862
42
2.4142135623730949
10
-48.426655327095077
20
74.489669052621863
10
-40.006655327095082
20
74.489669052621863
10
-40.006655327095082
20
64.489669052621849
10
-80.006655327095075
20
64.489669052621849
10
-80.006655327095075
20
74.489669052621863
10
-71.586655327095073
20
74.489669052621863
42
2.4142135623730949
10
-70.006655327095075
20
76.069669052621862
10
-70.006655327095075
20
86.489669052621863
0
ENDSEC
0
SECTION
2
OBJECTS
0
DICTIONARY
5
C
100
AcDbDictionary
3
ACAD_GROUP
350
D
3
ACAD_MLINESTYLE
350
17
0
DICTIONARY
5
D
100
AcDbDictionary
0
DICTIONARY
5
1A
330
C
100
AcDbDictionary
0
DICTIONARY
5
17
100
AcDbDictionary
0
ENDSEC
0
EOF
